  0
SECTION
  2
HEADER
  9
$ACADVER
  1
AC1015
  9
$ACADMAINTVER
 70
     6
  9
$DWGCODEPAGE
  3
ANSI_1254
  9
$INSBASE
 10
0.0
 20
0.0
 30
0.0
  9
$EXTMIN
 10
0.0
 20
0.0
 30
0.0
  9
$EXTMAX
 10
279.4
 20
215.9
 30
0.0
  9
$LIMMIN
 10
0.0
 20
0.0
  9
$LIMMAX
 10
279.4
 20
215.9
  9
$ORTHOMODE
 70
     0
  9
$REGENMODE
 70
     1
  9
$FILLMODE
 70
     1
  9
$QTEXTMODE
 70
     0
  9
$MIRRTEXT
 70
     1
  9
$LTSCALE
 40
1.0
  9
$ATTMODE
 70
     1
  9
$TEXTSIZE
 40
3.5
  9
$TRACEWID
 40
1.0
  9
$TEXTSTYLE
  7
Standard
  9
$CLAYER
  8
0
  9
$CELTYPE
  6
ByLayer
  9
$CECOLOR
 62
   256
  9
$CELTSCALE
 40
1.0
  9
$DISPSILH
 70
     0
  9
$DIMSCALE
 40
1.0
  9
$DIMASZ
 40
3.5
  9
$DIMEXO
 40
1.0
  9
$DIMDLI
 40
3.75
  9
$DIMRND
 40
0.0
  9
$DIMDLE
 40
0.0
  9
$DIMEXE
 40
1.0
  9
$DIMTP
 40
0.0
  9
$DIMTM
 40
0.0
  9
$DIMTXT
 40
3.5
  9
$DIMCEN
 40
2.5
  9
$DIMTSZ
 40
0.0
  9
$DIMTOL
 70
     0
  9
$DIMLIM
 70
     0
  9
$DIMTIH
 70
     1
  9
$DIMTOH
 70
     1
  9
$DIMSE1
 70
     0
  9
$DIMSE2
 70
     0
  9
$DIMTAD
 70
     1
  9
$DIMZIN
 70
     0
  9
$DIMBLK
  1

  9
$DIMASO
 70
     1
  9
$DIMSHO
 70
     1
  9
$DIMPOST
  1

  9
$DIMAPOST
  1

  9
$DIMALT
 70
     0
  9
$DIMALTD
 70
     3
  9
$DIMALTF
 40
0.0393700787
  9
$DIMLFAC
 40
1.0
  9
$DIMTOFL
 70
     1
  9
$DIMTVP
 40
0.0
  9
$DIMTIX
 70
     0
  9
$DIMSOXD
 70
     0
  9
$DIMSAH
 70
     0
  9
$DIMBLK1
  1

  9
$DIMBLK2
  1

  9
$DIMSTYLE
  2
ISO-25
  9
$DIMCLRD
 70
     0
  9
$DIMCLRE
 70
     0
  9
$DIMCLRT
 70
     0
  9
$DIMTFAC
 40
1.0
  9
$DIMGAP
 40
1.524
  9
$DIMJUST
 70
     0
  9
$DIMSD1
 70
     0
  9
$DIMSD2
 70
     0
  9
$DIMTOLJ
 70
     0
  9
$DIMTZIN
 70
     0
  9
$DIMALTZ
 70
     0
  9
$DIMALTTZ
 70
     0
  9
$DIMUPT
 70
     0
  9
$DIMDEC
 70
     2
  9
$DIMTDEC
 70
     2
  9
$DIMALTU
 70
     2
  9
$DIMALTTD
 70
     3
  9
$DIMTXSTY
  7
Standard
  9
$DIMAUNIT
 70
     0
  9
$DIMADEC
 70
     2
  9
$DIMALTRND
 40
0.0
  9
$DIMAZIN
 70
     0
  9
$DIMDSEP
 70
    44
  9
$DIMATFIT
 70
     3
  9
$DIMFRAC
 70
     0
  9
$DIMLDRBLK
  1

  9
$DIMLUNIT
 70
     2
  9
$DIMLWD
 70
    -2
  9
$DIMLWE
 70
    -2
  9
$DIMTMOVE
 70
     0
  9
$LUNITS
 70
     2
  9
$LUPREC
 70
     2
  9
$SKETCHINC
 40
1.0
  9
$FILLETRAD
 40
10.0
  9
$AUNITS
 70
     0
  9
$AUPREC
 70
     2
  9
$MENU
  1
.
  9
$ELEVATION
 40
0.0
  9
$PELEVATION
 40
0.0
  9
$THICKNESS
 40
0.0
  9
$LIMCHECK
 70
     0
  9
$CHAMFERA
 40
0.0
  9
$CHAMFERB
 40
0.0
  9
$CHAMFERC
 40
0.0
  9
$CHAMFERD
 40
0.0
  9
$SKPOLY
 70
     0
  9
$TDCREATE
 40
2458985.705548982
  9
$TDUCREATE
 40
2458985.580548982
  9
$TDUPDATE
 40
2458985.705549248
  9
$TDUUPDATE
 40
2458985.580549248
  9
$TDINDWG
 40
0.0000000116
  9
$TDUSRTIMER
 40
0.0000000116
  9
$USRTIMER
 70
     1
  9
$ANGBASE
 50
0.0
  9
$ANGDIR
 70
     0
  9
$PDMODE
 70
     0
  9
$PDSIZE
 40
-1.0
  9
$PLINEWID
 40
0.0
  9
$SPLFRAME
 70
     0
  9
$SPLINETYPE
 70
     6
  9
$SPLINESEGS
 70
     8
  9
$HANDSEED
  5
ED
  9
$SURFTAB1
 70
     6
  9
$SURFTAB2
 70
     6
  9
$SURFTYPE
 70
     6
  9
$SURFU
 70
     6
  9
$SURFV
 70
     6
  9
$UCSBASE
  2

  9
$UCSNAME
  2

  9
$UCSORG
 10
0.0
 20
0.0
 30
0.0
  9
$UCSXDIR
 10
1.0
 20
0.0
 30
0.0
  9
$UCSYDIR
 10
0.0
 20
1.0
 30
0.0
  9
$UCSORTHOREF
  2

  9
$UCSORTHOVIEW
 70
     0
  9
$UCSORGTOP
 10
0.0
 20
0.0
 30
0.0
  9
$UCSORGBOTTOM
 10
0.0
 20
0.0
 30
0.0
  9
$UCSORGLEFT
 10
0.0
 20
0.0
 30
0.0
  9
$UCSORGRIGHT
 10
0.0
 20
0.0
 30
0.0
  9
$UCSORGFRONT
 10
0.0
 20
0.0
 30
0.0
  9
$UCSORGBACK
 10
0.0
 20
0.0
 30
0.0
  9
$PUCSBASE
  2

  9
$PUCSNAME
  2

  9
$PUCSORG
 10
0.0
 20
0.0
 30
0.0
  9
$PUCSXDIR
 10
1.0
 20
0.0
 30
0.0
  9
$PUCSYDIR
 10
0.0
 20
1.0
 30
0.0
  9
$PUCSORTHOREF
  2

  9
$PUCSORTHOVIEW
 70
     0
  9
$PUCSORGTOP
 10
0.0
 20
0.0
 30
0.0
  9
$PUCSORGBOTTOM
 10
0.0
 20
0.0
 30
0.0
  9
$PUCSORGLEFT
 10
0.0
 20
0.0
 30
0.0
  9
$PUCSORGRIGHT
 10
0.0
 20
0.0
 30
0.0
  9
$PUCSORGFRONT
 10
0.0
 20
0.0
 30
0.0
  9
$PUCSORGBACK
 10
0.0
 20
0.0
 30
0.0
  9
$USERI1
 70
     0
  9
$USERI2
 70
     0
  9
$USERI3
 70
     0
  9
$USERI4
 70
     0
  9
$USERI5
 70
     0
  9
$USERR1
 40
0.0
  9
$USERR2
 40
0.0
  9
$USERR3
 40
0.0
  9
$USERR4
 40
0.0
  9
$USERR5
 40
0.0
  9
$WORLDVIEW
 70
     1
  9
$SHADEDGE
 70
     3
  9
$SHADEDIF
 70
    70
  9
$TILEMODE
 70
     1
  9
$MAXACTVP
 70
    64
  9
$PINSBASE
 10
0.0
 20
0.0
 30
0.0
  9
$PLIMCHECK
 70
     0
  9
$PEXTMIN
 10
1.0000000000E+20
 20
1.0000000000E+20
 30
1.0000000000E+20
  9
$PEXTMAX
 10
-1.0000000000E+20
 20
-1.0000000000E+20
 30
-1.0000000000E+20
  9
$PLIMMIN
 10
0.0
 20
0.0
  9
$PLIMMAX
 10
420.0
 20
297.0
  9
$UNITMODE
 70
     0
  9
$VISRETAIN
 70
     1
  9
$PLINEGEN
 70
     0
  9
$PSLTSCALE
 70
     1
  9
$TREEDEPTH
 70
  3020
  9
$CMLSTYLE
  2
Standard
  9
$CMLJUST
 70
     0
  9
$CMLSCALE
 40
20.0
  9
$PROXYGRAPHICS
 70
     1
  9
$MEASUREMENT
 70
     1
  9
$CELWEIGHT
370
    -1
  9
$ENDCAPS
280
     0
  9
$JOINSTYLE
280
     0
  9
$LWDISPLAY
290
     1
  9
$INSUNITS
 70
     4
  9
$HYPERLINKBASE
  1

  9
$STYLESHEET
  1

  9
$XEDIT
290
     1
  9
$CEPSNTYPE
380
     0
  9
$PSTYLEMODE
290
     1
  9
$FINGERPRINTGUID
  2
{212836ff-9c23-479f-b7b0-d52718c8ef08}
  9
$VERSIONGUID
  2
{FAEB1C32-E019-11D5-929B-00C0DF256EC4}
  9
$EXTNAMES
290
     1
  9
$PSVPSCALE
 40
0.0
  9
$OLESTARTUP
290
     0
  0
ENDSEC
  0
SECTION
  2
CLASSES
  0
CLASS
  1
ACDBDICTIONARYWDFLT
  2
AcDbDictionaryWithDefault
  3
ObjectDBX Classes
 90
        0
280
     0
281
     0
  0
CLASS
  1
VISUALSTYLE
  2
AcDbVisualStyle
  3
ObjectDBX Classes
 90
     4095
280
     0
281
     0
  0
CLASS
  1
MATERIAL
  2
AcDbMaterial
  3
ObjectDBX Classes
 90
     1153
280
     0
281
     0
  0
CLASS
  1
SCALE
  2
AcDbScale
  3
ObjectDBX Classes
 90
     1153
280
     0
281
     0
  0
CLASS
  1
TABLESTYLE
  2
AcDbTableStyle
  3
ObjectDBX Classes
 90
     4095
280
     0
281
     0
  0
CLASS
  1
MLEADERSTYLE
  2
AcDbMLeaderStyle
  3
ACDB_MLEADERSTYLE_CLASS
 90
     4095
280
     0
281
     0
  0
CLASS
  1
SUN
  2
AcDbSun
  3
SCENEOE
 90
     1153
280
     0
281
     0
  0
CLASS
  1
ACDBPLACEHOLDER
  2
AcDbPlaceHolder
  3
ObjectDBX Classes
 90
        0
280
     0
281
     0
  0
CLASS
  1
LAYOUT
  2
AcDbLayout
  3
ObjectDBX Classes
 90
        0
280
     0
281
     0
  0
ENDSEC
  0
SECTION
  2
TABLES
  0
TABLE
  2
VPORT
  5
8
330
0
100
AcDbSymbolTable
 70
     1
  0
VPORT
  5
29
330
8
100
AcDbSymbolTableRecord
100
AcDbViewportTableRecord
  2
*Active
 70
     0
 10
0.0
 20
0.0
 11
1.0
 21
1.0
 12
139.7
 22
107.95
 13
0.0
 23
0.0
 14
10.0
 24
10.0
 15
10.0
 25
10.0
 16
0.0
 26
0.0
 36
1.0
 17
0.0
 27
0.0
 37
0.0
 40
215.9
 41
1.2941176471
 42
50.0
 43
0.0
 44
0.0
 50
0.0
 51
0.0
 71
     0
 72
  2000
 73
     1
 74
     3
 75
     0
 76
     0
 77
     0
 78
     0
281
     0
 65
     1
110
0.0
120
0.0
130
0.0
111
1.0
121
0.0
131
0.0
112
0.0
122
1.0
132
0.0
 79
     0
146
0.0
  0
ENDTAB
  0
TABLE
  2
LTYPE
  5
5
330
0
100
AcDbSymbolTable
 70
     6
  0
LTYPE
  5
14
330
5
100
AcDbSymbolTableRecord
100
AcDbLinetypeTableRecord
  2
ByBlock
 70
     0
  3

 72
    65
 73
     0
 40
0.0
  0
LTYPE
  5
15
330
5
100
AcDbSymbolTableRecord
100
AcDbLinetypeTableRecord
  2
ByLayer
 70
     0
  3

 72
    65
 73
     0
 40
0.0
  0
LTYPE
  5
16
330
5
100
AcDbSymbolTableRecord
100
AcDbLinetypeTableRecord
  2
Continuous
 70
     0
  3
Solid line
 72
    65
 73
     0
 40
0.0
  0
LTYPE
  5
6E
330
5
100
AcDbSymbolTableRecord
100
AcDbLinetypeTableRecord
  2
HIDDEN
 70
     0
  3
Hidden __ __ __ __ __ __ __ __ __ __ __ __ __ __
 72
    65
 73
     2
 40
1.905
 49
1.27
 74
     0
 49
-0.635
 74
     0
  0
LTYPE
  5
6F
330
5
100
AcDbSymbolTableRecord
100
AcDbLinetypeTableRecord
  2
PHANTOM
 70
     0
  3
Phantom ______  __  __  ______  __  __  ______
 72
    65
 73
     6
 40
12.7
 49
6.35
 74
     0
 49
-1.27
 74
     0
 49
1.27
 74
     0
 49
-1.27
 74
     0
 49
1.27
 74
     0
 49
-1.27
 74
     0
  0
LTYPE
  5
70
330
5
100
AcDbSymbolTableRecord
100
AcDbLinetypeTableRecord
  2
CENTER
 70
     0
  3
Center ____ _ ____ _ ____ _ ____ _ ____ _ ____
 72
    65
 73
     4
 40
10.16
 49
6.35
 74
     0
 49
-1.27
 74
     0
 49
1.27
 74
     0
 49
-1.27
 74
     0
  0
LTYPE
  5
71
330
5
100
AcDbSymbolTableRecord
100
AcDbLinetypeTableRecord
  2
CENTERX2
 70
     0
  3
Center (2x) ________  __  ________  __  _____
 72
    65
 73
     4
 40
20.32
 49
12.7
 74
     0
 49
-2.54
 74
     0
 49
2.54
 74
     0
 49
-2.54
 74
     0
  0
LTYPE
  5
72
330
5
100
AcDbSymbolTableRecord
100
AcDbLinetypeTableRecord
  2
DOT2
 70
     0
  3
Dot (.5x) ........................................
 72
    65
 73
     2
 40
0.635
 49
0.0
 74
     0
 49
-0.635
 74
     0
  0
ENDTAB
  0
TABLE
  2
LAYER
  5
2
330
0
100
AcDbSymbolTable
 70
    17
  0
LAYER
  5
10
330
2
100
AcDbSymbolTableRecord
100
AcDbLayerTableRecord
  2
0
 70
     0
 62
     7
  6
Continuous
370
    -3
390
F
  0
LAYER
  5
73
330
2
100
AcDbSymbolTableRecord
100
AcDbLayerTableRecord
  2
FORMAT
 70
     0
 62
     7
  6
Continuous
370
    -3
390
F
  0
LAYER
  5
74
330
2
100
AcDbSymbolTableRecord
100
AcDbLayerTableRecord
  2
YARDIMCI_GEOMETRI
 70
     0
 62
    -6
  6
Continuous
290
     0
370
    -3
390
F
  0
LAYER
  5
75
330
2
100
AcDbSymbolTableRecord
100
AcDbLayerTableRecord
  2
SAYFA_CERCEVESI
 70
     0
 62
     7
  6
Continuous
370
    25
390
F
  0
LAYER
  5
76
330
2
100
AcDbSymbolTableRecord
100
AcDbLayerTableRecord
  2
ANTET
 70
     0
 62
     7
  6
Continuous
370
    -3
390
F
  0
LAYER
  5
77
330
2
100
AcDbSymbolTableRecord
100
AcDbLayerTableRecord
  2
OLCU
 70
     0
 62
   150
  6
Continuous
370
    -3
390
F
  0
LAYER
  5
78
330
2
100
AcDbSymbolTableRecord
100
AcDbLayerTableRecord
  2
METIN
 70
     0
 62
    96
  6
Continuous
370
    -3
390
F
  0
LAYER
  5
79
330
2
100
AcDbSymbolTableRecord
100
AcDbLayerTableRecord
  2
BALON
 70
     0
 62
     5
  6
Continuous
370
    -3
390
F
  0
LAYER
  5
7A
330
2
100
AcDbSymbolTableRecord
100
AcDbLayerTableRecord
  2
VURGU
 70
     0
 62
     7
  6
Continuous
370
    -3
390
F
  0
LAYER
  5
7B
330
2
100
AcDbSymbolTableRecord
100
AcDbLayerTableRecord
  2
SILIK
 70
     0
 62
     7
  6
Continuous
370
    -3
390
F
  0
LAYER
  5
7C
330
2
100
AcDbSymbolTableRecord
100
AcDbLayerTableRecord
  2
MODEL
 70
     0
 62
     7
  6
Continuous
370
    -3
390
F
  0
LAYER
  5
7D
330
2
100
AcDbSymbolTableRecord
100
AcDbLayerTableRecord
  2
DETAYLANDıRMA
 70
     0
 62
   190
  6
Continuous
370
    -3
390
F
  0
LAYER
  5
7E
330
2
100
AcDbSymbolTableRecord
100
AcDbLayerTableRecord
  2
TOLERANS
 70
     0
 62
   230
  6
Continuous
370
    -3
390
F
  0
LAYER
  5
7F
330
2
100
AcDbSymbolTableRecord
100
AcDbLayerTableRecord
  2
MERKEZ_CIZGILERI
 70
     0
 62
    30
  6
Continuous
370
    -3
390
F
  0
LAYER
  5
80
330
2
100
AcDbSymbolTableRecord
100
AcDbLayerTableRecord
  2
KESIT-DETAY_CIZGILERI
 70
     0
 62
     7
  6
Continuous
370
    -3
390
F
  0
LAYER
  5
81
330
2
100
AcDbSymbolTableRecord
100
AcDbLayerTableRecord
  2
\U+041E\U+0421\U+0415\U+0412\U+042B\U+0415
 70
     0
 62
     7
  6
Continuous
370
    -3
390
F
  0
LAYER
  5
82
330
2
100
AcDbSymbolTableRecord
100
AcDbLayerTableRecord
  2
\U+0412\U+041E\U+0414\U+042F\U+041D\U+042B\U+0415_\U+0417\U+041D\U+0410\U+041A\U+0418
 70
     0
 62
    11
  6
Continuous
370
    -3
390
F
  0
ENDTAB
  0
TABLE
  2
STYLE
  5
3
330
0
100
AcDbSymbolTable
 70
     1
  0
STYLE
  5
11
330
3
100
AcDbSymbolTableRecord
100
AcDbTextStyleTableRecord
  2
Standard
 70
     0
 40
0.0
 41
1.0
 50
0.0
 71
     0
 42
3.5
  3
txt
  4

  0
ENDTAB
  0
TABLE
  2
VIEW
  5
6
330
0
100
AcDbSymbolTable
 70
     0
  0
ENDTAB
  0
TABLE
  2
UCS
  5
7
330
0
100
AcDbSymbolTable
 70
     0
  0
ENDTAB
  0
TABLE
  2
APPID
  5
9
330
0
100
AcDbSymbolTable
 70
     1
  0
APPID
  5
12
330
9
100
AcDbSymbolTableRecord
100
AcDbRegAppTableRecord
  2
ACAD
 70
     0
  0
ENDTAB
  0
TABLE
  2
DIMSTYLE
  5
A
330
0
100
AcDbSymbolTable
 70
     1
100
AcDbDimStyleTable
  0
DIMSTYLE
105
27
330
A
100
AcDbSymbolTableRecord
100
AcDbDimStyleTableRecord
  2
ISO-25
 70
     0
 41
2.5
 42
0.625
 43
3.75
 44
1.25
 73
     0
 74
     0
 77
     1
 78
     8
140
2.5
141
2.5
143
0.0393700787
147
0.625
171
     3
172
     1
178
     0
271
     2
272
     2
274
     3
278
    44
283
     0
284
     8
340
11
  0
ENDTAB
  0
TABLE
  2
BLOCK_RECORD
  5
1
330
0
100
AcDbSymbolTable
 70
     2
  0
BLOCK_RECORD
  5
1F
330
1
100
AcDbSymbolTableRecord
100
AcDbBlockTableRecord
  2
*Model_Space
340
22
  0
BLOCK_RECORD
  5
1B
330
1
100
AcDbSymbolTableRecord
100
AcDbBlockTableRecord
  2
*Paper_Space
340
1E
  0
BLOCK_RECORD
  5
23
330
1
100
AcDbSymbolTableRecord
100
AcDbBlockTableRecord
  2
*Paper_Space0
340
26
  0
BLOCK_RECORD
  5
88
330
1
100
AcDbSymbolTableRecord
100
AcDbBlockTableRecord
  2
SW_CENTERMARKSYMBOL_0
340
0
102
{BLKREFS
331
93
102
}
  0
ENDTAB
  0
ENDSEC
  0
SECTION
  2
BLOCKS
  0
BLOCK
  5
20
330
1F
100
AcDbEntity
  8
0
100
AcDbBlockBegin
  2
*Model_Space
 70
     0
 10
0.0
 20
0.0
 30
0.0
  3
*Model_Space
  1

  0
ENDBLK
  5
21
330
1F
100
AcDbEntity
  8
0
100
AcDbBlockEnd
  0
BLOCK
  5
1C
330
1B
100
AcDbEntity
 67
     1
  8
0
100
AcDbBlockBegin
  2
*Paper_Space
 70
     0
 10
0.0
 20
0.0
 30
0.0
  3
*Paper_Space
  1

  0
ENDBLK
  5
1D
330
1B
100
AcDbEntity
 67
     1
  8
0
100
AcDbBlockEnd
  0
BLOCK
  5
24
330
23
100
AcDbEntity
  8
0
100
AcDbBlockBegin
  2
*Paper_Space0
 70
     0
 10
0.0
 20
0.0
 30
0.0
  3
*Paper_Space0
  1

  0
ENDBLK
  5
25
330
23
100
AcDbEntity
  8
0
100
AcDbBlockEnd
  0
BLOCK
  5
89
330
88
100
AcDbEntity
  8
0
100
AcDbBlockBegin
  2
SW_CENTERMARKSYMBOL_0
 70
     0
 10
0.0
 20
0.0
 30
0.0
  3
SW_CENTERMARKSYMBOL_0
  1

  0
LINE
  5
8B
330
88
100
AcDbEntity
  8
FORMAT
 62
     0
100
AcDbLine
 10
0.0
 20
0.0
 30
0.0
 11
0.0
 21
2.5
 31
0.0
  0
LINE
  5
8C
330
88
100
AcDbEntity
  8
FORMAT
 62
     0
100
AcDbLine
 10
0.0
 20
0.0
 30
0.0
 11
-2.5
 21
0.0
 31
0.0
  0
LINE
  5
8D
330
88
100
AcDbEntity
  8
FORMAT
 62
     0
100
AcDbLine
 10
0.0
 20
0.0
 30
0.0
 11
0.0
 21
-2.5
 31
0.0
  0
LINE
  5
8E
330
88
100
AcDbEntity
  8
FORMAT
 62
     0
100
AcDbLine
 10
0.0
 20
0.0
 30
0.0
 11
2.5
 21
0.0
 31
0.0
  0
LINE
  5
8F
330
88
100
AcDbEntity
  8
FORMAT
 62
     0
100
AcDbLine
 10
0.0
 20
5.0
 30
0.0
 11
0.0
 21
72.5
 31
0.0
  0
LINE
  5
90
330
88
100
AcDbEntity
  8
FORMAT
 62
     0
100
AcDbLine
 10
-5.0
 20
0.0
 30
0.0
 11
-72.5
 21
0.0
 31
0.0
  0
LINE
  5
91
330
88
100
AcDbEntity
  8
FORMAT
 62
     0
100
AcDbLine
 10
0.0
 20
-5.0
 30
0.0
 11
0.0
 21
-72.5
 31
0.0
  0
LINE
  5
92
330
88
100
AcDbEntity
  8
FORMAT
 62
     0
100
AcDbLine
 10
5.0
 20
0.0
 30
0.0
 11
72.5
 21
0.0
 31
0.0
  0
ENDBLK
  5
8A
330
88
100
AcDbEntity
  8
0
100
AcDbBlockEnd
  0
ENDSEC
  0
SECTION
  2
ENTITIES
  0
CIRCLE
  5
83
330
1F
100
AcDbEntity
  8
0
  6
Continuous
 62
     7
370
    25
100
AcDbCircle
 10
136.0804557792
 20
118.8813202377
 30
0.0
 40
70.00000000000001
  0
CIRCLE
  5
84
330
1F
100
AcDbEntity
  8
0
  6
Continuous
 62
     7
370
    25
100
AcDbCircle
 10
136.0804557792
 20
118.8813202377
 30
0.0
 40
61.7
  0
CIRCLE
  5
85
330
1F
100
AcDbEntity
  8
0
  6
Continuous
 62
     7
370
    25
100
AcDbCircle
 10
136.0804557792
 20
118.8813202377
 30
0.0
 40
61.63483837240572
  0
CIRCLE
  5
86
330
1F
100
AcDbEntity
  8
0
  6
Continuous
 62
     7
370
    25
100
AcDbCircle
 10
136.0804557792
 20
118.8813202377
 30
0.0
 40
55.16516162759432
  0
CIRCLE
  5
87
330
1F
100
AcDbEntity
  8
0
  6
Continuous
 62
     7
370
    25
100
AcDbCircle
 10
136.0804557792
 20
118.8813202377
 30
0.0
 40
55.10000000000001
  0
INSERT
  5
93
330
1F
100
AcDbEntity
  8
FORMAT
 62
     7
100
AcDbBlockReference
  2
SW_CENTERMARKSYMBOL_0
 10
136.0804557792
 20
118.8813202377
 30
0.0
  0
LINE
  5
94
330
1F
100
AcDbEntity
  8
0
  6
Continuous
 62
     7
370
    25
100
AcDbLine
 10
-123.4756338247
 20
188.8813205357
 30
0.0
 11
-215.3136621067
 21
188.8813205357
 31
0.0
  0
LINE
  5
95
330
1F
100
AcDbEntity
  8
0
  6
Continuous
 62
     7
370
    25
100
AcDbLine
 10
-215.3136621067
 20
48.8813199397
 30
0.0
 11
-123.4756338247
 21
48.8813199397
 31
0.0
  0
ARC
  5
96
330
1F
100
AcDbEntity
  8
0
  6
Continuous
 62
     7
370
    25
100
AcDbCircle
 10
-123.4756346395
 20
186.8813202377
 30
0.0
 40
2.0
100
AcDbArc
 50
80.7397784688
 51
90.0
  0
ARC
  5
97
330
1F
100
AcDbEntity
  8
0
  6
Continuous
 62
     7
370
    25
100
AcDbCircle
 10
-123.4756346395
 20
50.8813202377
 30
0.0
 40
2.000000000000021
100
AcDbArc
 50
270.0
 51
279.2602215312
  0
LINE
  5
98
330
1F
100
AcDbEntity
  8
0
  6
Continuous
 62
     7
370
    25
100
AcDbLine
 10
-123.1537966826
 20
48.9073820706
 30
0.0
 11
-77.4735233584
 21
56.3552581068
 31
0.0
  0
LINE
  5
99
330
1F
100
AcDbEntity
  8
0
  6
Continuous
 62
     7
370
    25
100
AcDbLine
 10
-77.4735233584
 20
181.4073823686
 30
0.0
 11
-123.1537966826
 21
188.8552584048
 31
0.0
  0
ARC
  5
9A
330
1F
100
AcDbEntity
  8
0
  6
Continuous
 62
     7
370
    25
100
AcDbCircle
 10
-77.1516864553
 20
183.3813202377
 30
0.0
 40
2.000000000000018
100
AcDbArc
 50
260.7397784688
 51
270.0
  0
ARC
  5
9B
330
1F
100
AcDbEntity
  8
0
  6
Continuous
 62
     7
370
    25
100
AcDbCircle
 10
-77.1516864553
 20
54.3813202377
 30
0.0
 40
2.000000000000004
100
AcDbArc
 50
90.0
 51
99.2602215312
  0
LINE
  5
9C
330
1F
100
AcDbEntity
  8
0
  6
Continuous
 62
     7
370
    25
100
AcDbLine
 10
9.6863393835
 20
181.3813202377
 30
0.0
 11
-77.1516862163
 21
181.3813202377
 31
0.0
  0
LINE
  5
9D
330
1F
100
AcDbEntity
  8
0
  6
Continuous
 62
     7
370
    25
100
AcDbLine
 10
-77.1516862163
 20
56.3813202377
 30
0.0
 11
9.6863393835
 21
56.3813202377
 31
0.0
  0
LINE
  5
9E
330
1F
100
AcDbEntity
  8
0
  6
Continuous
 62
     7
370
    25
100
AcDbLine
 10
-215.3136621067
 20
188.8813205357
 30
0.0
 11
-215.3136621067
 21
48.8813199397
 31
0.0
  0
LINE
  5
9F
330
1F
100
AcDbEntity
  8
0
  6
Continuous
 62
     7
370
    25
100
AcDbLine
 10
9.6863393835
 20
181.3813202377
 30
0.0
 11
9.6863393835
 21
56.3813202377
 31
0.0
  0
LINE
  5
A0
330
1F
100
AcDbEntity
  8
0
  6
Continuous
 62
     1
370
    25
100
AcDbLine
 10
-123.4756338247
 20
188.8813205357
 30
0.0
 11
-123.4756338247
 21
48.8813199397
 31
0.0
  0
LINE
  5
A1
330
1F
100
AcDbEntity
  8
0
  6
Continuous
 62
     1
370
    25
100
AcDbLine
 10
-123.1537966826
 20
188.8552584048
 30
0.0
 11
-123.1537966826
 21
48.9073820706
 31
0.0
  0
LINE
  5
A2
330
1F
100
AcDbEntity
  8
0
  6
Continuous
 62
     1
370
    25
100
AcDbLine
 10
-77.4735233584
 20
181.4073823686
 30
0.0
 11
-77.4735233584
 21
56.3552581068
 31
0.0
  0
LINE
  5
A3
330
1F
100
AcDbEntity
  8
0
  6
Continuous
 62
     1
370
    25
100
AcDbLine
 10
-77.1516862163
 20
181.3813202377
 30
0.0
 11
-77.1516862163
 21
56.3813202377
 31
0.0
  0
LINE
  5
A4
330
1F
100
AcDbEntity
  8
0
  6
Continuous
 62
     7
370
    25
100
AcDbLine
 10
206.0804560772
 20
343.6302749124
 30
0.0
 11
206.0804560772
 21
435.4683031943
 31
0.0
  0
LINE
  5
A5
330
1F
100
AcDbEntity
  8
0
  6
Continuous
 62
     7
370
    25
100
AcDbLine
 10
66.0804554812
 20
435.4683031943
 30
0.0
 11
66.0804554812
 21
343.6302749124
 31
0.0
  0
ARC
  5
A6
330
1F
100
AcDbEntity
  8
0
  6
Continuous
 62
     7
370
    25
100
AcDbCircle
 10
204.0804557792
 20
343.6302757272
 30
0.0
 40
2.00000000000002
100
AcDbArc
 50
350.7397784688
 51
0.0
  0
ARC
  5
A7
330
1F
100
AcDbEntity
  8
0
  6
Continuous
 62
     7
370
    25
100
AcDbCircle
 10
68.0804557792
 20
343.6302757272
 30
0.0
 40
2.00000000000002
100
AcDbArc
 50
180.0
 51
189.2602215312
  0
LINE
  5
A8
330
1F
100
AcDbEntity
  8
0
  6
Continuous
 62
     7
370
    25
100
AcDbLine
 10
66.1065176121
 20
343.3084377703
 30
0.0
 11
73.5543936483
 21
297.628164446
 31
0.0
  0
LINE
  5
A9
330
1F
100
AcDbEntity
  8
0
  6
Continuous
 62
     7
370
    25
100
AcDbLine
 10
198.6065179101
 20
297.628164446
 30
0.0
 11
206.0543939463
 21
343.3084377703
 31
0.0
  0
ARC
  5
AA
330
1F
100
AcDbEntity
  8
0
  6
Continuous
 62
     7
370
    25
100
AcDbCircle
 10
200.5804557792
 20
297.306327543
 30
0.0
 40
2.00000000000002
100
AcDbArc
 50
170.7397784688
 51
180.0
  0
ARC
  5
AB
330
1F
100
AcDbEntity
  8
0
  6
Continuous
 62
     7
370
    25
100
AcDbCircle
 10
71.5804557792
 20
297.306327543
 30
0.0
 40
2.000000000000007
100
AcDbArc
 50
0.0
 51
9.2602215312
  0
LINE
  5
AC
330
1F
100
AcDbEntity
  8
0
  6
Continuous
 62
     7
370
    25
100
AcDbLine
 10
198.5804557792
 20
210.4683017042
 30
0.0
 11
198.5804557792
 21
297.3063273039
 31
0.0
  0
LINE
  5
AD
330
1F
100
AcDbEntity
  8
0
  6
Continuous
 62
     7
370
    25
100
AcDbLine
 10
73.5804557792
 20
297.3063273039
 30
0.0
 11
73.5804557792
 21
210.4683017042
 31
0.0
  0
LINE
  5
AE
330
1F
100
AcDbEntity
  8
0
  6
Continuous
 62
     7
370
    25
100
AcDbLine
 10
206.0804560772
 20
435.4683031943
 30
0.0
 11
66.0804554812
 21
435.4683031943
 31
0.0
  0
LINE
  5
AF
330
1F
100
AcDbEntity
  8
0
  6
Continuous
 62
     7
370
    25
100
AcDbLine
 10
198.5804557792
 20
210.4683017042
 30
0.0
 11
73.5804557792
 21
210.4683017042
 31
0.0
  0
LINE
  5
B0
330
1F
100
AcDbEntity
  8
0
  6
Continuous
 62
     1
370
    25
100
AcDbLine
 10
206.0804560772
 20
343.6302749124
 30
0.0
 11
66.0804554812
 21
343.6302749124
 31
0.0
  0
LINE
  5
B1
330
1F
100
AcDbEntity
  8
0
  6
Continuous
 62
     1
370
    25
100
AcDbLine
 10
206.0543939463
 20
343.3084377703
 30
0.0
 11
66.1065176121
 21
343.3084377703
 31
0.0
  0
LINE
  5
B2
330
1F
100
AcDbEntity
  8
0
  6
Continuous
 62
     1
370
    25
100
AcDbLine
 10
198.6065179101
 20
297.628164446
 30
0.0
 11
73.5543936483
 21
297.628164446
 31
0.0
  0
LINE
  5
B3
330
1F
100
AcDbEntity
  8
0
  6
Continuous
 62
     1
370
    25
100
AcDbLine
 10
198.5804557792
 20
297.3063273039
 30
0.0
 11
73.5804557792
 21
297.3063273039
 31
0.0
  0
LINE
  5
B4
330
1F
100
AcDbEntity
  8
0
  6
Continuous
 62
     7
370
    25
100
AcDbLine
 10
404.4725334307
 20
48.8813199397
 30
0.0
 11
496.3105617126
 21
48.8813199397
 31
0.0
  0
LINE
  5
B5
330
1F
100
AcDbEntity
  8
0
  6
Continuous
 62
     7
370
    25
100
AcDbLine
 10
496.3105617126
 20
188.8813205357
 30
0.0
 11
404.4725334307
 21
188.8813205357
 31
0.0
  0
ARC
  5
B6
330
1F
100
AcDbEntity
  8
0
  6
Continuous
 62
     7
370
    25
100
AcDbCircle
 10
404.4725342455
 20
50.8813202377
 30
0.0
 40
2.000000000000021
100
AcDbArc
 50
260.7397784688
 51
270.0
  0
ARC
  5
B7
330
1F
100
AcDbEntity
  8
0
  6
Continuous
 62
     7
370
    25
100
AcDbCircle
 10
404.4725342455
 20
186.8813202377
 30
0.0
 40
2.0
100
AcDbArc
 50
90.0
 51
99.2602215312
  0
LINE
  5
B8
330
1F
100
AcDbEntity
  8
0
  6
Continuous
 62
     7
370
    25
100
AcDbLine
 10
404.1506962886
 20
188.8552584048
 30
0.0
 11
358.4704229643
 21
181.4073823686
 31
0.0
  0
LINE
  5
B9
330
1F
100
AcDbEntity
  8
0
  6
Continuous
 62
     7
370
    25
100
AcDbLine
 10
358.4704229643
 20
56.3552581068
 30
0.0
 11
404.1506962886
 21
48.9073820706
 31
0.0
  0
ARC
  5
BA
330
1F
100
AcDbEntity
  8
0
  6
Continuous
 62
     7
370
    25
100
AcDbCircle
 10
358.1485860612
 20
54.3813202377
 30
0.0
 40
2.000000000000007
100
AcDbArc
 50
80.7397784688
 51
90.0
  0
ARC
  5
BB
330
1F
100
AcDbEntity
  8
0
  6
Continuous
 62
     7
370
    25
100
AcDbCircle
 10
358.1485860612
 20
183.3813202377
 30
0.0
 40
2.00000000000002
100
AcDbArc
 50
270.0
 51
279.2602215312
  0
LINE
  5
BC
330
1F
100
AcDbEntity
  8
0
  6
Continuous
 62
     7
370
    25
100
AcDbLine
 10
271.3105602225
 20
56.3813202377
 30
0.0
 11
358.1485858222
 21
56.3813202377
 31
0.0
  0
LINE
  5
BD
330
1F
100
AcDbEntity
  8
0
  6
Continuous
 62
     7
370
    25
100
AcDbLine
 10
358.1485858222
 20
181.3813202377
 30
0.0
 11
271.3105602225
 21
181.3813202377
 31
0.0
  0
LINE
  5
BE
330
1F
100
AcDbEntity
  8
0
  6
Continuous
 62
     7
370
    25
100
AcDbLine
 10
496.3105617126
 20
118.8813202377
 30
0.0
 11
496.3105617126
 21
188.8813205357
 31
0.0
  0
LINE
  5
BF
330
1F
100
AcDbEntity
  8
0
  6
Continuous
 62
     7
370
    25
100
AcDbLine
 10
496.3105617126
 20
48.8813199397
 30
0.0
 11
496.3105617126
 21
118.8813202377
 31
0.0
  0
LINE
  5
C0
330
1F
100
AcDbEntity
  8
0
  6
Continuous
 62
     7
370
    25
100
AcDbLine
 10
271.3105602225
 20
118.8813202377
 30
0.0
 11
271.3105602225
 21
181.3813202377
 31
0.0
  0
LINE
  5
C1
330
1F
100
AcDbEntity
  8
0
  6
Continuous
 62
     7
370
    25
100
AcDbLine
 10
271.3105602225
 20
56.3813202377
 30
0.0
 11
271.3105602225
 21
118.8813202377
 31
0.0
  0
LINE
  5
C2
330
1F
100
AcDbEntity
  8
0
  6
Continuous
 62
     1
370
    25
100
AcDbLine
 10
404.4725334307
 20
118.8813202377
 30
0.0
 11
404.4725334307
 21
188.8813205357
 31
0.0
  0
LINE
  5
C3
330
1F
100
AcDbEntity
  8
0
  6
Continuous
 62
     1
370
    25
100
AcDbLine
 10
404.4725334307
 20
48.8813199397
 30
0.0
 11
404.4725334307
 21
118.8813202377
 31
0.0
  0
LINE
  5
C4
330
1F
100
AcDbEntity
  8
0
  6
Continuous
 62
     1
370
    25
100
AcDbLine
 10
404.1506962886
 20
118.8813202377
 30
0.0
 11
404.1506962886
 21
188.8552584048
 31
0.0
  0
LINE
  5
C5
330
1F
100
AcDbEntity
  8
0
  6
Continuous
 62
     1
370
    25
100
AcDbLine
 10
404.1506962886
 20
48.9073820706
 30
0.0
 11
404.1506962886
 21
118.8813202377
 31
0.0
  0
LINE
  5
C6
330
1F
100
AcDbEntity
  8
0
  6
Continuous
 62
     1
370
    25
100
AcDbLine
 10
358.4704229643
 20
118.8813202377
 30
0.0
 11
358.4704229643
 21
181.4073823686
 31
0.0
  0
LINE
  5
C7
330
1F
100
AcDbEntity
  8
0
  6
Continuous
 62
     1
370
    25
100
AcDbLine
 10
358.4704229643
 20
56.3552581068
 30
0.0
 11
358.4704229643
 21
118.8813202377
 31
0.0
  0
LINE
  5
C8
330
1F
100
AcDbEntity
  8
0
  6
Continuous
 62
     1
370
    25
100
AcDbLine
 10
358.1485858222
 20
118.8813202377
 30
0.0
 11
358.1485858222
 21
181.3813202377
 31
0.0
  0
LINE
  5
C9
330
1F
100
AcDbEntity
  8
0
  6
Continuous
 62
     1
370
    25
100
AcDbLine
 10
358.1485858222
 20
56.3813202377
 30
0.0
 11
358.1485858222
 21
118.8813202377
 31
0.0
  0
LINE
  5
CA
330
1F
100
AcDbEntity
  8
0
  6
Continuous
 62
     7
370
    25
100
AcDbLine
 10
66.0804554812
 20
-128.2715727588
 30
0.0
 11
66.0804554812
 21
-220.1096010407
 31
0.0
  0
LINE
  5
CB
330
1F
100
AcDbEntity
  8
0
  6
Continuous
 62
     7
370
    25
100
AcDbLine
 10
206.0804560772
 20
-220.1096010407
 30
0.0
 11
206.0804560772
 21
-128.2715727588
 31
0.0
  0
ARC
  5
CC
330
1F
100
AcDbEntity
  8
0
  6
Continuous
 62
     7
370
    25
100
AcDbCircle
 10
68.0804557792
 20
-128.2715735736
 30
0.0
 40
2.000000000000016
100
AcDbArc
 50
170.7397784688
 51
180.0
  0
ARC
  5
CD
330
1F
100
AcDbEntity
  8
0
  6
Continuous
 62
     7
370
    25
100
AcDbCircle
 10
204.0804557792
 20
-128.2715735736
 30
0.0
 40
2.000000000000016
100
AcDbArc
 50
0.0
 51
9.2602215312
  0
LINE
  5
CE
330
1F
100
AcDbEntity
  8
0
  6
Continuous
 62
     7
370
    25
100
AcDbLine
 10
206.0543939463
 20
-127.9497356167
 30
0.0
 11
198.6065179101
 21
-82.2694622924
 31
0.0
  0
LINE
  5
CF
330
1F
100
AcDbEntity
  8
0
  6
Continuous
 62
     7
370
    25
100
AcDbLine
 10
73.5543936483
 20
-82.2694622924
 30
0.0
 11
66.1065176121
 21
-127.9497356167
 31
0.0
  0
ARC
  5
D0
330
1F
100
AcDbEntity
  8
0
  6
Continuous
 62
     7
370
    25
100
AcDbCircle
 10
71.5804557792
 20
-81.9476253893
 30
0.0
 40
2.000000000000004
100
AcDbArc
 50
350.7397784688
 51
0.0
  0
ARC
  5
D1
330
1F
100
AcDbEntity
  8
0
  6
Continuous
 62
     7
370
    25
100
AcDbCircle
 10
200.5804557792
 20
-81.9476253893
 30
0.0
 40
2.000000000000018
100
AcDbArc
 50
180.0
 51
189.2602215312
  0
LINE
  5
D2
330
1F
100
AcDbEntity
  8
0
  6
Continuous
 62
     7
370
    25
100
AcDbLine
 10
73.5804557792
 20
4.8904004494
 30
0.0
 11
73.5804557792
 21
-81.9476251503
 31
0.0
  0
LINE
  5
D3
330
1F
100
AcDbEntity
  8
0
  6
Continuous
 62
     7
370
    25
100
AcDbLine
 10
198.5804557792
 20
-81.9476251503
 30
0.0
 11
198.5804557792
 21
4.8904004494
 31
0.0
  0
LINE
  5
D4
330
1F
100
AcDbEntity
  8
0
  6
Continuous
 62
     7
370
    25
100
AcDbLine
 10
66.0804554812
 20
-220.1096010407
 30
0.0
 11
206.0804560772
 21
-220.1096010407
 31
0.0
  0
LINE
  5
D5
330
1F
100
AcDbEntity
  8
0
  6
Continuous
 62
     7
370
    25
100
AcDbLine
 10
73.5804557792
 20
4.8904004494
 30
0.0
 11
198.5804557792
 21
4.8904004494
 31
0.0
  0
LINE
  5
D6
330
1F
100
AcDbEntity
  8
0
  6
Continuous
 62
     1
370
    25
100
AcDbLine
 10
66.0804554812
 20
-128.2715727588
 30
0.0
 11
206.0804560772
 21
-128.2715727588
 31
0.0
  0
LINE
  5
D7
330
1F
100
AcDbEntity
  8
0
  6
Continuous
 62
     1
370
    25
100
AcDbLine
 10
66.1065176121
 20
-127.9497356167
 30
0.0
 11
206.0543939463
 21
-127.9497356167
 31
0.0
  0
LINE
  5
D8
330
1F
100
AcDbEntity
  8
0
  6
Continuous
 62
     1
370
    25
100
AcDbLine
 10
73.5543936483
 20
-82.2694622924
 30
0.0
 11
198.6065179101
 21
-82.2694622924
 31
0.0
  0
LINE
  5
D9
330
1F
100
AcDbEntity
  8
0
  6
Continuous
 62
     1
370
    25
100
AcDbLine
 10
73.5804557792
 20
-81.9476251503
 30
0.0
 11
198.5804557792
 21
-81.9476251503
 31
0.0
  0
LINE
  5
DA
330
1F
100
AcDbEntity
  8
0
  6
Continuous
 62
     7
370
    25
100
AcDbLine
 10
390.6744849891
 20
-37.2555451306
 30
0.0
 11
325.7351924202
 21
0.233110501
 31
0.0
  0
LINE
  5
DB
330
1F
100
AcDbEntity
  8
0
  6
Continuous
 62
     7
370
    25
100
AcDbLine
 10
255.740883232
 20
-121.0137296966
 30
0.0
 11
320.680175801
 21
-158.5023853282
 31
0.0
  0
LINE
  5
DC
330
1F
100
AcDbEntity
  8
0
  6
Continuous
 62
     7
370
    25
100
AcDbLine
 10
325.1883647196
 20
-160.5359719236
 30
0.0
 11
360.7585979155
 21
-172.5277521887
 31
0.0
  0
LINE
  5
DD
330
1F
100
AcDbEntity
  8
0
  6
Continuous
 62
     7
370
    25
100
AcDbLine
 10
422.8626219357
 20
-64.9487711717
 30
0.0
 11
394.6899877854
 21
-40.1425834171
 31
0.0
  0
LINE
  5
DE
330
1F
100
AcDbEntity
  8
0
  6
Continuous
 62
     7
370
    25
100
AcDbLine
 10
481.0845247643
 20
-98.1081697241
 30
0.0
 11
421.3739491482
 21
-63.6379881394
 31
0.0
  0
LINE
  5
DF
330
1F
100
AcDbEntity
  8
0
  6
Continuous
 62
     7
370
    25
100
AcDbLine
 10
358.8790289131
 20
-171.8940942635
 30
0.0
 11
418.5896045292
 21
-206.3642758482
 31
0.0
  0
LWPOLYLINE
  5
E0
330
1F
100
AcDbEntity
  8
0
  6
Continuous
 62
     7
370
    25
100
AcDbPolyline
 90
      117
 70
   128
 43
0.0
 10
241.2405629323
 20
-88.9645936333
 10
241.3131556105
 20
-85.8282227723
 10
241.5307176425
 20
-82.6172393897
 10
241.8926168256
 20
-79.3410585268
 10
242.3977889519
 20
-76.0092913844
 10
243.0447483449
 20
-72.631712813
 10
243.8315983964
 20
-69.2182299451
 10
244.756036835
 20
-65.7788494959
 10
245.8153451887
 20
-62.3236671157
 10
247.0064230302
 20
-58.8628118793
 10
248.3257721709
 20
-55.4064371589
 10
249.7695230033
 20
-51.9646810827
 10
251.3334424034
 20
-48.547637638
 10
253.012941633
 20
-45.1653323368
 10
254.8030947792
 20
-41.827684195
 10
256.6986519252
 20
-38.5444829192
 10
258.6940523211
 20
-35.3253600106
 10
260.7834428233
 20
-32.1797568272
 10
262.9606963338
 20
-29.1168987299
 10
265.2194249709
 20
-26.1457722697
 10
267.5530037767
 20
-23.2750902089
 10
269.9545878397
 20
-20.5132725107
 10
272.4171333678
 20
-17.8684250486
 10
274.9334187619
 20
-15.3482970223
 10
277.496060421
 20
-12.9602900848
 10
280.0975436937
 20
-10.7114009303
 10
282.7302373663
 20
-8.6082250977
 10
285.3864193459
 20
-6.6569360607
 10
288.058298557
 20
-4.8632604195
 10
290.7380378261
 20
-3.2324525225
 10
293.4177770952
 20
-1.7692993163
 10
296.0896563063
 20
-0.478088884
 10
298.7458382859
 20
0.6373845148
 10
301.3785319585
 20
1.573852096
 10
303.9800152312
 20
2.3285715945
 10
306.5426568903
 20
2.8993277376
 10
309.0589422844
 20
3.2844409876
 10
311.5214878125
 20
3.4827880731
 10
313.9230718755
 20
3.4937803131
 10
316.2566506813
 20
3.3173909918
 10
318.5153793184
 20
2.9541371059
 10
320.6926328289
 20
2.405082404
 10
322.7820233311
 20
1.671838146
 10
324.777423727
 20
0.7565554959
 10
326.672980873
 20
-0.3380820841
 10
328.4631340192
 20
-1.6088633978
 10
330.1426332488
 20
-3.0520601635
 10
331.7065526489
 20
-4.6634407036
 10
333.1503034813
 20
-6.43827755
 10
334.469652622
 20
-8.3713641766
 10
335.6607304635
 20
-10.457030209
 10
336.7200388172
 20
-12.6891611973
 10
337.6444772558
 20
-15.0612077442
 10
338.4313273073
 20
-17.56621288
 10
339.0782867003
 20
-20.1968280359
 10
339.5834588266
 20
-22.9453358564
 10
339.9453580097
 20
-25.8036768164
 10
340.1629200417
 20
-28.7634684237
 10
340.2355127199
 20
-31.8160255624
 10
340.1629200417
 20
-34.9523964233
 10
339.9453580097
 20
-38.163379806
 10
339.5834588266
 20
-41.4395606688
 10
339.0782867003
 20
-44.7713278113
 10
338.4313273073
 20
-48.1489063827
 10
337.6444772558
 20
-51.5623892506
 10
336.7200388172
 20
-55.0017696998
 10
335.6607304635
 20
-58.45695208
 10
334.469652622
 20
-61.9178073164
 10
333.1503034813
 20
-65.3741820368
 10
331.7065526489
 20
-68.815938113
 10
330.1426332488
 20
-72.2329815577
 10
328.4631340192
 20
-75.6152868589
 10
326.672980873
 20
-78.9529350006
 10
324.777423727
 20
-82.2361362765
 10
322.7820233311
 20
-85.4552591851
 10
320.6926328289
 20
-88.6008623685
 10
318.5153793184
 20
-91.6637204658
 10
316.2566506813
 20
-94.6348469259
 10
313.9230718755
 20
-97.5055289868
 10
311.5214878125
 20
-100.267346685
 10
309.0589422844
 20
-102.912194147
 10
306.5426568903
 20
-105.4323221733
 10
303.9800152312
 20
-107.8203291108
 10
301.3785319585
 20
-110.0692182654
 10
298.7458382859
 20
-112.172394098
 10
296.0896563063
 20
-114.1236831349
 10
293.4177770952
 20
-115.9173587761
 10
290.7380378261
 20
-117.5481666732
 10
288.058298557
 20
-119.0113198794
 10
285.3864193459
 20
-120.3025303117
 10
282.7302373663
 20
-121.4180037105
 10
280.0975436937
 20
-122.3544712917
 10
277.496060421
 20
-123.1091907902
 10
274.9334187619
 20
-123.6799469333
 10
272.4171333678
 20
-124.0650601832
 10
269.9545878397
 20
-124.2634072688
 10
267.5530037767
 20
-124.2743995088
 10
265.2194249709
 20
-124.0980101875
 10
262.9606963338
 20
-123.7347563015
 10
260.7834428233
 20
-123.1857015997
 10
258.6940523211
 20
-122.4524573417
 10
256.6986519252
 20
-121.5371746915
 10
254.8030947792
 20
-120.4425371116
 10
253.012941633
 20
-119.1717557979
 10
251.3334424034
 20
-117.7285590321
 10
249.7695230033
 20
-116.1171784921
 10
248.3257721709
 20
-114.3423416457
 10
247.0064230302
 20
-112.4092550191
 10
245.8153451887
 20
-110.3235889867
 10
244.756036835
 20
-108.0914579984
 10
243.8315983964
 20
-105.7194114515
 10
243.0447483449
 20
-103.2144063156
 10
242.3977889519
 20
-100.5837911598
 10
241.8926168256
 20
-97.8352833393
 10
241.5307176425
 20
-94.9769423793
 10
241.3131556105
 20
-92.017150772
 10
241.2405629323
 20
-88.9645936333
  0
LWPOLYLINE
  5
E1
330
1F
100
AcDbEntity
  8
0
  6
Continuous
 62
     7
370
    25
100
AcDbPolyline
 90
      110
 70
   128
 43
0.0
 10
247.1095484659
 20
-85.5765004023
 10
247.1820147036
 20
-82.6321420369
 10
247.399168438
 20
-79.6138992665
 10
247.7602879044
 20
-76.5317983463
 10
248.264177186
 20
-73.3960761355
 10
248.9091583113
 20
-70.2171515786
 10
249.6930923277
 20
-67.0055819811
 10
250.6133740333
 20
-63.7720371536
 10
251.6669451473
 20
-60.5272575869
 10
252.8503074813
 20
-57.2820247956
 10
254.1595282075
 20
-54.0471156908
 10
255.590258298
 20
-50.8332797678
 10
257.1377456955
 20
-47.6511904379
 10
258.7968511188
 20
-44.511419174
 10
260.5620612332
 20
-41.4243974886
 10
262.4275123584
 20
-38.4003789132
 10
264.3870089077
 20
-35.4494070603
 10
266.4340418272
 20
-32.5812836858
 10
268.5618096692
 20
-29.8055413143
 10
270.763243617
 20
-27.131401416
 10
273.0310325094
 20
-24.5677417091
 10
275.3576425972
 20
-22.123081713
 10
277.735343885
 20
-19.8055401646
 10
280.1562397657
 20
-17.6228179108
 10
282.6122874351
 20
-15.5821648305
 10
285.0953275269
 20
-13.6903596846
 10
287.5971121002
 20
-11.9536878757
 10
290.1093305292
 20
-10.3779173765
 10
292.6236376145
 20
-8.9682825019
 10
295.1316808301
 20
-7.729468179
 10
297.6251285593
 20
-6.665587564
 10
300.0956984522
 20
-5.7801717546
 10
302.5351830687
 20
-5.0761701963
 10
304.9354790186
 20
-4.5559125674
 10
307.288612645
 20
-4.2211334959
 10
309.5867657076
 20
-4.0729425242
 10
311.8223056754
 20
-4.1118309555
 10
313.9878068006
 20
-4.3376718561
 10
316.0760725089
 20
-4.7497132135
 10
318.0801709606
 20
-5.3465878254
 10
319.9934403197
 20
-6.1263102585
 10
321.8095243144
 20
-7.0862958636
 10
323.5223933113
 20
-8.2233486098
 10
325.1263548517
 20
-9.5336975879
 10
326.6160852617
 20
-11.0129848461
 10
327.9866296524
 20
-12.6562988499
 10
329.2334387985
 20
-14.4581805701
 10
330.3523691378
 20
-16.4126447747
 10
331.3397038452
 20
-18.5131998037
 10
332.1921660032
 20
-20.7528643005
 10
332.9069212362
 20
-23.1242006718
 10
333.4815961498
 20
-25.61933106
 10
333.914280965
 20
-28.2299677612
 10
334.2035374205
 20
-30.9474379415
 10
334.3484066756
 20
-33.7627143411
 10
334.3484066756
 20
-36.666444742
 10
334.2035374205
 20
-39.6489836231
 10
333.914280965
 20
-42.7004221982
 10
333.4815961498
 20
-45.8106261534
 10
332.9069212362
 20
-48.9692620738
 10
332.1921660032
 20
-52.1658372715
 10
331.3397038452
 20
-55.3897336258
 10
330.3523691378
 20
-58.6302410435
 10
329.2334387985
 20
-61.8765947193
 10
327.9866296524
 20
-65.1180116381
 10
326.6160852617
 20
-68.3437225132
 10
325.1263548517
 20
-71.5430158914
 10
323.5223933113
 20
-74.7052594453
 10
321.8095243144
 20
-77.8199486402
 10
319.9934403197
 20
-80.8767401938
 10
318.0801709606
 20
-83.8654764088
 10
316.0760725089
 20
-86.7762338407
 10
313.9878068006
 20
-89.5993354639
 10
311.8223056754
 20
-92.3254107448
 10
309.5867657076
 20
-94.9453986826
 10
307.288612645
 20
-97.4505987579
 10
304.9354790186
 20
-99.8326899413
 10
302.5351830687
 20
-102.0837550269
 10
300.0956984522
 20
-104.1963224545
 10
297.6251285593
 20
-106.1633659271
 10
295.1316808301
 20
-107.9783587816
 10
292.6236376145
 20
-109.6352695183
 10
290.1093305292
 20
-111.1285918132
 10
287.5971121002
 20
-112.4533669723
 10
285.0953275269
 20
-113.6051941483
 10
282.6122874351
 20
-114.5802460695
 10
280.1562397657
 20
-115.3752852689
 10
277.735343885
 20
-115.9876699034
 10
275.3576425972
 20
-116.415363828
 10
273.0310325094
 20
-116.6569506609
 10
270.763243617
 20
-116.7116242764
 10
268.5618096692
 20
-116.5792059121
 10
266.4340418272
 20
-116.2601319993
 10
264.3870089077
 20
-115.7554625262
 10
262.4275123584
 20
-115.0668772329
 10
260.5620612332
 20
-114.1966626816
 10
258.7968511188
 20
-113.1477092129
 10
257.1377456955
 20
-111.9235002967
 10
255.590258298
 20
-110.5281018852
 10
254.1595282075
 20
-108.9661517633
 10
252.8503074813
 20
-107.2428367338
 10
251.6669451473
 20
-105.3638850112
 10
250.6133740333
 20
-103.3355327603
 10
249.6930923277
 20
-101.1645225734
 10
248.9091583113
 20
-98.8580639256
 10
248.264177186
 20
-96.4238187249
 10
247.7602879044
 20
-93.8698746951
 10
247.399168438
 20
-91.2047134361
 10
247.1820147036
 20
-88.4371910307
 10
247.1095484659
 20
-85.5765004023
  0
LWPOLYLINE
  5
E2
330
1F
100
AcDbEntity
  8
0
  6
Continuous
 62
     7
370
    25
100
AcDbPolyline
 90
        3
 70
   128
 43
0.0
 10
390.6744849891
 20
-37.2555451306
 10
391.6122734419
 20
-37.8267377157
 10
392.9942817755
 20
-38.7853228825
  0
LWPOLYLINE
  5
E3
330
1F
100
AcDbEntity
  8
0
  6
Continuous
 62
     7
370
    25
100
AcDbPolyline
 90
        3
 70
   128
 43
0.0
 10
323.2866528167
 20
-159.7980084746
 10
321.6379444941
 20
-159.0258303231
 10
320.680175801
 20
-158.5023853282
  0
ARC
  5
E4
330
1F
100
AcDbEntity
  8
0
  6
Continuous
 62
     7
370
    25
100
AcDbCircle
 10
378.4935266639
 20
-58.5675623319
 30
0.0
 40
24.53080465512188
100
AcDbArc
 50
41.3999065836
 51
54.5286637243
  0
ARC
  5
E5
330
1F
100
AcDbEntity
  8
0
  6
Continuous
 62
     7
370
    25
100
AcDbCircle
 10
333.0473031245
 20
-137.2889338277
 30
0.0
 40
24.53859603513693
100
AcDbArc
 50
245.4774549826
 51
258.7634404778
  0
ARC
  5
E6
330
1F
100
AcDbEntity
  8
0
  6
Continuous
 62
     7
370
    25
100
AcDbCircle
 10
408.1158822352
 20
-81.6766379689
 30
0.0
 40
22.29995200396463
100
AcDbArc
 50
41.8522473478
 51
48.601654912
  0
LWPOLYLINE
  5
E7
330
1F
100
AcDbEntity
  8
0
  6
Continuous
 62
     7
370
    25
100
AcDbPolyline
 90
        3
 70
   128
 43
0.0
 10
362.9181128711
 20
-173.1351661902
 10
361.5019076383
 20
-172.7636186645
 10
360.7585979155
 20
-172.5277521887
  0
LWPOLYLINE
  5
E8
330
1F
100
AcDbEntity
  8
0
  6
Continuous
 62
     7
370
    25
100
AcDbPolyline
 90
       57
 70
   128
 43
0.0
 10
481.0845247643
 20
-98.1081697241
 10
481.3114223233
 20
-98.2410712584
 10
483.0465000751
 20
-99.3928684221
 10
484.6712610852
 20
-100.720205051
 10
486.1803052886
 20
-102.2186729955
 10
487.5686198443
 20
-103.8832937952
 10
488.831594941
 20
-105.7085399731
 10
489.9650343329
 20
-107.6883456836
 10
490.9651711456
 20
-109.816135611
 10
491.8286863146
 20
-112.0848386599
 10
492.5527085859
 20
-114.4869229365
 10
493.134832955
 20
-117.014405636
 10
493.5731285694
 20
-119.658891067
 10
493.8661360944
 20
-122.4115961264
 10
494.0128835184
 20
-125.2633753011
 10
494.0128835184
 20
-128.2047554594
 10
493.8661360944
 20
-131.2259656034
 10
493.5731285694
 20
-134.3169699503
 10
493.134832955
 20
-137.4675007262
 10
492.5527085859
 20
-140.6670899161
 10
491.8286863146
 20
-143.9051125136
 10
490.9651711456
 20
-147.1708089551
 10
489.9650343329
 20
-150.4533322671
 10
488.831594941
 20
-153.7417792443
 10
487.5686198443
 20
-157.0252254302
 10
486.1803052886
 20
-160.292760097
 10
484.6712610852
 20
-163.5335333927
 10
483.0465000751
 20
-166.736779154
 10
481.3114223233
 20
-169.8918544491
 10
479.4717914111
 20
-172.9882806401
 10
477.5337133633
 20
-176.0157707579
 10
475.5036313795
 20
-178.9642660041
 10
473.3882889553
 20
-181.8239722493
 10
471.1947101264
 20
-184.5853927316
 10
468.9301849806
 20
-187.2393516294
 10
466.602232779
 20
-189.7770366437
 10
464.2185887856
 20
-192.1900126855
 10
461.7871713393
 20
-194.4702652189
 10
459.3160568301
 20
-196.6102207915
 10
456.8134533566
 20
-198.6027713661
 10
454.2876753727
 20
-200.4412980838
 10
451.7471129
 20
-202.119689036
 10
449.2002055155
 20
-203.6323755744
 10
446.6554135406
 20
-204.9743276507
 10
444.1211907112
 20
-206.1410878444
 10
441.6059556956
 20
-207.1287847635
 10
439.1180634479
 20
-207.9341313307
 10
436.6657780433
 20
-208.5544556745
 10
434.2572476528
 20
-208.9876973249
 10
431.9004709582
 20
-209.2324144343
 10
429.6032780535
 20
-209.2877978445
 10
427.3733001526
 20
-209.1536611975
 10
425.2179445641
 20
-208.8304492989
 10
423.1443696667
 20
-208.3192403962
 10
421.1594664703
 20
-207.6217264055
 10
419.2698283224
 20
-206.7402273573
 10
418.5896045292
 20
-206.3642758482
  0
LWPOLYLINE
  5
E9
330
1F
100
AcDbEntity
  8
0
  6
Continuous
 62
     1
370
    25
100
AcDbPolyline
 90
       58
 70
   128
 43
0.0
 10
392.9942817755
 20
-38.7853228825
 10
393.4024265881
 20
-39.0975190294
 10
395.0819258177
 20
-40.5407157951
 10
396.6458452178
 20
-42.1520963351
 10
398.0895960503
 20
-43.9269331815
 10
399.408945191
 20
-45.8600198082
 10
400.6000230324
 20
-47.9456858406
 10
401.6593313862
 20
-50.1778168289
 10
402.5837698247
 20
-52.5498633758
 10
403.3706198763
 20
-55.0548685116
 10
404.0175792693
 20
-57.6854836675
 10
404.5227513955
 20
-60.433991488
 10
404.8846505786
 20
-63.292332448
 10
405.1022126106
 20
-66.2521240553
 10
405.1748052888
 20
-69.304681194
 10
405.1022126106
 20
-72.4410520549
 10
404.8846505786
 20
-75.6520354376
 10
404.5227513955
 20
-78.9282163004
 10
404.0175792693
 20
-82.2599834428
 10
403.3706198763
 20
-85.6375620143
 10
402.5837698247
 20
-89.0510448822
 10
401.6593313862
 20
-92.4904253314
 10
400.6000230324
 20
-95.9456077116
 10
399.408945191
 20
-99.406462948
 10
398.0895960503
 20
-102.8628376684
 10
396.6458452178
 20
-106.3045937445
 10
395.0819258177
 20
-109.7216371893
 10
393.4024265881
 20
-113.1039424904
 10
391.6122734419
 20
-116.4415906322
 10
389.716716296
 20
-119.724791908
 10
387.7213159001
 20
-122.9439148167
 10
385.6319253978
 20
-126.0895180001
 10
383.4546718873
 20
-129.1523760974
 10
381.1959432503
 20
-132.1235025575
 10
378.8623644444
 20
-134.9941846183
 10
376.4607803815
 20
-137.7560023165
 10
373.9982348534
 20
-140.4008497786
 10
371.4819494593
 20
-142.9209778049
 10
368.9193078002
 20
-145.3089847424
 10
366.3178245274
 20
-147.557873897
 10
363.6851308548
 20
-149.6610497296
 10
361.0289488752
 20
-151.6123387665
 10
358.3570696641
 20
-153.4060144077
 10
355.677330395
 20
-155.0368223048
 10
352.997591126
 20
-156.499975511
 10
350.3257119149
 20
-157.7911859433
 10
347.6695299353
 20
-158.9066593421
 10
345.0368362627
 20
-159.8431269233
 10
342.4353529899
 20
-160.5978464218
 10
339.8727113308
 20
-161.1686025649
 10
337.3564259367
 20
-161.5537158148
 10
334.8938804086
 20
-161.7520629004
 10
332.4922963456
 20
-161.7630551404
 10
330.1587175398
 20
-161.5866658191
 10
327.8999889028
 20
-161.2234119331
 10
325.7227353923
 20
-160.6743572313
 10
323.63334489
 20
-159.9411129733
 10
323.2866528167
 20
-159.7980084746
  0
LWPOLYLINE
  5
EA
330
1F
100
AcDbEntity
  8
0
  6
Continuous
 62
     1
370
    25
100
AcDbPolyline
 90
       52
 70
   128
 43
0.0
 10
396.8943812322
 20
-42.3450801486
 10
398.3013773786
 20
-44.0783968352
 10
399.620233928
 20
-46.0107640176
 10
400.8108692275
 20
-48.0956543364
 10
401.8697824546
 20
-50.3269548622
 10
402.79387845
 20
-52.6981161981
 10
403.580438742
 20
-55.2021874583
 10
404.2271557906
 20
-57.8318238757
 10
404.732138256
 20
-60.5793088558
 10
405.0939004619
 20
-63.4365866758
 10
405.3113834685
 20
-66.3952750342
 10
405.383949805
 20
-69.4466950883
 10
405.3113834685
 20
-72.581898451
 10
405.0939004619
 20
-75.7916873441
 10
404.732138256
 20
-79.0666469163
 10
404.2271557906
 20
-82.3971722406
 10
403.580438742
 20
-85.7734922688
 10
402.79387845
 20
-89.1857067117
 10
401.8697824546
 20
-92.6238065735
 10
400.8108692275
 20
-96.0777022876
 10
399.620233928
 20
-99.5372708623
 10
398.3013773786
 20
-102.9923574048
 10
396.8581639184
 20
-106.4328329119
 10
395.2948266717
 20
-109.8486033964
 10
393.6159543765
 20
-113.2296494298
 10
391.8264676773
 20
-116.5660550378
 10
389.9316164911
 20
-119.8480335555
 10
387.9369589334
 20
-123.0659580443
 10
385.8483455137
 20
-126.2103886668
 10
383.67190333
 20
-129.2721061459
 10
381.4140149957
 20
-132.2421269719
 10
379.0813054687
 20
-135.1117383825
 10
376.680614392
 20
-137.8725295396
 10
374.2189855579
 20
-140.5163915278
 10
371.7036379312
 20
-143.0355827518
 10
369.1419498445
 20
-145.4227046
 10
366.5414352907
 20
-147.6707546747
 10
363.9097221909
 20
-149.7731454213
 10
361.2545293452
 20
-151.7237052672
 10
358.5836450302
 20
-153.5167153115
 10
355.9049036207
 20
-155.146916738
 10
353.2261622112
 20
-156.6095243106
 10
350.5552778962
 20
-157.9002516572
 10
347.9000850504
 20
-159.0153122174
 10
345.2683719506
 20
-159.9514327393
 10
342.6678573968
 20
-160.7058728586
 10
340.1061693102
 20
-161.2764131197
 10
337.5908216834
 20
-161.6613804488
 10
335.1291928493
 20
-161.8596546159
 10
332.7285017727
 20
-161.8706423769
 10
330.3957922456
 20
-161.694320058
 10
328.2657063269
 20
-161.3571499527
  0
LWPOLYLINE
  5
EB
330
1F
100
AcDbEntity
  8
0
  6
Continuous
 62
     1
370
    25
100
AcDbPolyline
 90
       50
 70
   128
 43
0.0
 10
424.7264003579
 20
-66.797842753
 10
425.9530237977
 20
-68.2841228746
 10
427.21652573
 20
-70.1101280439
 10
428.3504392739
 20
-72.0907581407
 10
429.3509922867
 20
-74.2194348069
 10
430.2148683381
 20
-76.4890854264
 10
430.9391909057
 20
-78.8921720212
 10
431.5215602534
 20
-81.4207072243
 10
431.960037626
 20
-84.066296104
 10
432.2531663232
 20
-86.8201494738
 10
432.3999769675
 20
-89.6731168777
 10
432.3999769675
 20
-92.6157236626
 10
432.2531663232
 20
-95.6381950284
 10
431.960037626
 20
-98.7304875881
 10
431.5215602534
 20
-101.8823316663
 10
430.9391909057
 20
-105.083256206
 10
430.2148683381
 20
-108.3226278366
 10
429.3509922867
 20
-111.5896885146
 10
428.3504392739
 20
-114.8735790999
 10
427.21652573
 20
-118.1633979077
 10
425.9530237977
 20
-121.4482113564
 10
424.5641297228
 20
-124.7171117602
 10
423.0544585851
 20
-127.9592355791
 10
421.4290205912
 20
-131.1638181707
 10
419.6932184404
 20
-134.3202089986
 10
417.8528183482
 20
-137.4179248624
 10
415.913934242
 20
-140.4466772731
 10
413.883006687
 20
-143.3964028688
 10
411.7667818131
 20
-146.257302958
 10
409.5722876074
 20
-149.0198754557
 10
407.3068167917
 20
-151.6749399778
 10
404.9778952126
 20
-154.2136804236
 10
402.5932568169
 20
-156.6276655063
 10
400.1608252121
 20
-158.9088685232
 10
397.6886794222
 20
-161.0497175429
 10
395.1850328142
 20
-163.0430984452
 10
392.6582014884
 20
-164.8823914205
 10
390.1165795821
 20
-166.5614852261
 10
387.5686099654
 20
-168.0748001875
 10
385.0227569107
 20
-169.4173131006
 10
382.4874774466
 20
-170.5845585607
 10
379.9711933696
 20
-171.5726664115
 10
377.4822632558
 20
-172.3783505268
 10
375.0289557901
 20
-172.9989333322
 10
372.6194204607
 20
-173.432353597
 10
370.2616612176
 20
-173.6771755581
 10
367.9635094722
 20
-173.7325801712
 10
365.7326003893
 20
-173.5983879231
 10
363.5763465461
 20
-173.2750436197
 10
362.9181128711
 20
-173.1351661902
  0
LWPOLYLINE
  5
EC
330
1F
100
AcDbEntity
  8
0
  6
Continuous
 62
     1
370
    25
100
AcDbPolyline
 90
       53
 70
   128
 43
0.0
 10
422.2634662885
 20
-64.4212113796
 10
423.2675043188
 20
-65.2725707939
 10
424.7765485222
 20
-66.7710387384
 10
426.1648630779
 20
-68.435659538
 10
427.4278381746
 20
-70.260905716
 10
428.5612775665
 20
-72.2407114265
 10
429.5614143792
 20
-74.3685013539
 10
430.4249295482
 20
-76.6372044028
 10
431.1489518195
 20
-79.0392886793
 10
431.7310761886
 20
-81.5667713789
 10
432.169371803
 20
-84.2112568098
 10
432.462379328
 20
-86.9639618692
 10
432.609126752
 20
-89.815741044
 10
432.609126752
 20
-92.7571212022
 10
432.462379328
 20
-95.7783313463
 10
432.169371803
 20
-98.8693356932
 10
431.7310761886
 20
-102.019866469
 10
431.1489518195
 20
-105.2194556589
 10
430.4249295482
 20
-108.4574782565
 10
429.5614143792
 20
-111.7231746979
 10
428.5612775665
 20
-115.00569801
 10
427.4278381746
 20
-118.2941449872
 10
426.1648630779
 20
-121.5775911731
 10
424.7765485222
 20
-124.8451258399
 10
423.2675043188
 20
-128.0858991355
 10
421.6427433087
 20
-131.2891448969
 10
419.9076655568
 20
-134.444220192
 10
418.0680346447
 20
-137.5406463829
 10
416.1299565969
 20
-140.5681365008
 10
414.0998746131
 20
-143.516631747
 10
411.9845321888
 20
-146.3763379922
 10
409.79095336
 20
-149.1377584745
 10
407.5264282142
 20
-151.7917173722
 10
405.1984760126
 20
-154.3294023865
 10
402.8148320191
 20
-156.7423784283
 10
400.3834145729
 20
-159.0226309618
 10
397.9123000636
 20
-161.1625865343
 10
395.4096965902
 20
-163.155137109
 10
392.8839186063
 20
-164.9936638267
 10
390.3433561335
 20
-166.6720547788
 10
387.7964487491
 20
-168.1847413173
 10
385.2516567742
 20
-169.5266933936
 10
382.7174339448
 20
-170.6934535873
 10
380.2021989292
 20
-171.6811505064
 10
377.7143066815
 20
-172.4864970736
 10
375.2620212769
 20
-173.1068214174
 10
372.8534908864
 20
-173.5400630678
 10
370.4967141918
 20
-173.7847801772
 10
368.1995212871
 20
-173.8401635873
 10
365.9695433862
 20
-173.7060269404
 10
363.8141877977
 20
-173.3828150418
 10
361.7406129003
 20
-172.8716061391
 10
360.0021159853
 20
-172.2727199298
  0
ENDSEC
  0
SECTION
  2
OBJECTS
  0
DICTIONARY
  5
C
330
0
100
AcDbDictionary
281
     1
  3
ACAD_GROUP
350
D
  3
ACAD_LAYOUT
350
1A
  3
ACAD_MLINESTYLE
350
17
  3
ACAD_PLOTSETTINGS
350
19
  3
ACAD_PLOTSTYLENAME
350
E
  3
ACAD_SCALELIST
350
47
  0
DICTIONARY
  5
D
102
{ACAD_REACTORS
330
C
102
}
330
C
100
AcDbDictionary
281
     1
  0
DICTIONARY
  5
1A
102
{ACAD_REACTORS
330
C
102
}
330
C
100
AcDbDictionary
281
     1
  3
Layout1
350
1E
  3
Layout2
350
26
  3
Model
350
22
  0
DICTIONARY
  5
17
102
{ACAD_REACTORS
330
C
102
}
330
C
100
AcDbDictionary
281
     1
  3
Standard
350
18
  0
DICTIONARY
  5
19
102
{ACAD_REACTORS
330
C
102
}
330
C
100
AcDbDictionary
281
     1
  0
ACDBDICTIONARYWDFLT
  5
E
102
{ACAD_REACTORS
330
C
102
}
330
C
100
AcDbDictionary
281
     1
  3
Normal
350
F
100
AcDbDictionaryWithDefault
340
F
  0
DICTIONARY
  5
47
102
{ACAD_REACTORS
330
C
102
}
330
C
100
AcDbDictionary
281
     1
  3
A0
350
48
  3
A1
350
49
  3
A2
350
4A
  3
A3
350
4B
  3
A4
350
4C
  3
A5
350
4D
  3
A6
350
4E
  3
A7
350
4F
  3
A8
350
50
  3
A9
350
51
  3
B0
350
52
  3
B1
350
53
  3
B2
350
54
  3
B3
350
55
  3
B4
350
56
  3
B5
350
57
  3
B6
350
58
  3
B7
350
59
  3
B8
350
5A
  3
B9
350
5B
  3
C0
350
5C
  3
C1
350
5D
  3
C2
350
5E
  3
C3
350
5F
  3
C4
350
60
  3
C5
350
61
  3
C6
350
62
  3
C7
350
63
  3
C8
350
64
  3
C9
350
65
  3
D0
350
66
  3
D1
350
67
  3
D2
350
68
  0
LAYOUT
  5
1E
102
{ACAD_REACTORS
330
1A
102
}
330
1A
100
AcDbPlotSettings
  1

  2
none_device
  4

  6

 40
0.0
 41
0.0
 42
0.0
 43
0.0
 44
0.0
 45
0.0
 46
0.0
 47
0.0
 48
0.0
 49
0.0
140
0.0
141
0.0
142
1.0
143
1.0
 70
   688
 72
     1
 73
     0
 74
     5
  7

 75
    16
147
1.0
148
0.0
149
0.0
100
AcDbLayout
  1
Layout1
 70
     1
 71
     1
 10
0.0
 20
0.0
 11
420.0
 21
297.0
 12
0.0
 22
0.0
 32
0.0
 14
1.0000000000E+20
 24
1.0000000000E+20
 34
1.0000000000E+20
 15
-1.0000000000E+20
 25
-1.0000000000E+20
 35
-1.0000000000E+20
146
0.0
 13
0.0
 23
0.0
 33
0.0
 16
1.0
 26
0.0
 36
0.0
 17
0.0
 27
1.0
 37
0.0
 76
     0
330
1B
  0
LAYOUT
  5
26
102
{ACAD_REACTORS
330
1A
102
}
330
1A
100
AcDbPlotSettings
  1

  2
none_device
  4

  6

 40
0.0
 41
0.0
 42
0.0
 43
0.0
 44
0.0
 45
0.0
 46
0.0
 47
0.0
 48
0.0
 49
0.0
140
0.0
141
0.0
142
1.0
143
1.0
 70
   688
 72
     1
 73
     0
 74
     5
  7

 75
    16
147
1.0
148
0.0
149
0.0
100
AcDbLayout
  1
Layout2
 70
     1
 71
     2
 10
0.0
 20
0.0
 11
0.0
 21
0.0
 12
0.0
 22
0.0
 32
0.0
 14
0.0
 24
0.0
 34
0.0
 15
0.0
 25
0.0
 35
0.0
146
0.0
 13
0.0
 23
0.0
 33
0.0
 16
1.0
 26
0.0
 36
0.0
 17
0.0
 27
1.0
 37
0.0
 76
     0
330
23
  0
LAYOUT
  5
22
102
{ACAD_REACTORS
330
1A
102
}
330
1A
100
AcDbPlotSettings
  1

  2
none_device
  4
Letter_(8.50_x_11.00_Inches)
  6

 40
6.35
 41
6.35
 42
6.35000508
 43
6.35000508
 44
215.9
 45
279.4
 46
0.0
 47
0.0
 48
0.0
 49
0.0
140
0.0
141
0.0
142
1.0
143
1.0
 70
  1712
 72
     1
 73
     0
 74
     0
  7

 75
     0
147
1.0
148
0.0
149
0.0
100
AcDbLayout
  1
Model
 70
     1
 71
     0
 10
0.0
 20
0.0
 11
279.4
 21
215.9
 12
0.0
 22
0.0
 32
0.0
 14
0.0
 24
0.0
 34
0.0
 15
279.4
 25
215.9
 35
0.0
146
0.0
 13
0.0
 23
0.0
 33
0.0
 16
1.0
 26
0.0
 36
0.0
 17
0.0
 27
1.0
 37
0.0
 76
     0
330
1F
331
29
  0
MLINESTYLE
  5
18
102
{ACAD_REACTORS
330
17
102
}
330
17
100
AcDbMlineStyle
  2
Standard
 70
     0
  3

 62
   256
 51
90.0
 52
90.0
 71
     2
 49
0.5
 62
   256
  6
BYLAYER
 49
-0.5
 62
   256
  6
BYLAYER
  0
ACDBPLACEHOLDER
  5
F
102
{ACAD_REACTORS
330
E
102
}
330
E
  0
SCALE
  5
48
102
{ACAD_REACTORS
330
47
102
}
330
47
100
AcDbScale
 70
     0
300
1:1
140
1.0
141
1.0
290
     1
  0
SCALE
  5
49
102
{ACAD_REACTORS
330
47
102
}
330
47
100
AcDbScale
 70
     0
300
1:2
140
1.0
141
2.0
290
     0
  0
SCALE
  5
4A
102
{ACAD_REACTORS
330
47
102
}
330
47
100
AcDbScale
 70
     0
300
1:4
140
1.0
141
4.0
290
     0
  0
SCALE
  5
4B
102
{ACAD_REACTORS
330
47
102
}
330
47
100
AcDbScale
 70
     0
300
1:5
140
1.0
141
5.0
290
     0
  0
SCALE
  5
4C
102
{ACAD_REACTORS
330
47
102
}
330
47
100
AcDbScale
 70
     0
300
1:8
140
1.0
141
8.0
290
     0
  0
SCALE
  5
4D
102
{ACAD_REACTORS
330
47
102
}
330
47
100
AcDbScale
 70
     0
300
1:10
140
1.0
141
10.0
290
     0
  0
SCALE
  5
4E
102
{ACAD_REACTORS
330
47
102
}
330
47
100
AcDbScale
 70
     0
300
1:16
140
1.0
141
16.0
290
     0
  0
SCALE
  5
4F
102
{ACAD_REACTORS
330
47
102
}
330
47
100
AcDbScale
 70
     0
300
1:20
140
1.0
141
20.0
290
     0
  0
SCALE
  5
50
102
{ACAD_REACTORS
330
47
102
}
330
47
100
AcDbScale
 70
     0
300
1:30
140
1.0
141
30.0
290
     0
  0
SCALE
  5
51
102
{ACAD_REACTORS
330
47
102
}
330
47
100
AcDbScale
 70
     0
300
1:40
140
1.0
141
40.0
290
     0
  0
SCALE
  5
52
102
{ACAD_REACTORS
330
47
102
}
330
47
100
AcDbScale
 70
     0
300
1:50
140
1.0
141
50.0
290
     0
  0
SCALE
  5
53
102
{ACAD_REACTORS
330
47
102
}
330
47
100
AcDbScale
 70
     0
300
1:100
140
1.0
141
100.0
290
     0
  0
SCALE
  5
54
102
{ACAD_REACTORS
330
47
102
}
330
47
100
AcDbScale
 70
     0
300
2:1
140
2.0
141
1.0
290
     0
  0
SCALE
  5
55
102
{ACAD_REACTORS
330
47
102
}
330
47
100
AcDbScale
 70
     0
300
4:1
140
4.0
141
1.0
290
     0
  0
SCALE
  5
56
102
{ACAD_REACTORS
330
47
102
}
330
47
100
AcDbScale
 70
     0
300
8:1
140
8.0
141
1.0
290
     0
  0
SCALE
  5
57
102
{ACAD_REACTORS
330
47
102
}
330
47
100
AcDbScale
 70
     0
300
10:1
140
10.0
141
1.0
290
     0
  0
SCALE
  5
58
102
{ACAD_REACTORS
330
47
102
}
330
47
100
AcDbScale
 70
     0
300
100:1
140
100.0
141
1.0
290
     0
  0
SCALE
  5
59
102
{ACAD_REACTORS
330
47
102
}
330
47
100
AcDbScale
 70
     0
300
1/128" = 1'-0"
140
0.0078125
141
12.0
290
     0
  0
SCALE
  5
5A
102
{ACAD_REACTORS
330
47
102
}
330
47
100
AcDbScale
 70
     0
300
1/64" = 1'-0"
140
0.015625
141
12.0
290
     0
  0
SCALE
  5
5B
102
{ACAD_REACTORS
330
47
102
}
330
47
100
AcDbScale
 70
     0
300
1/32" = 1'-0"
140
0.03125
141
12.0
290
     0
  0
SCALE
  5
5C
102
{ACAD_REACTORS
330
47
102
}
330
47
100
AcDbScale
 70
     0
300
1/16" = 1'-0"
140
0.0625
141
12.0
290
     0
  0
SCALE
  5
5D
102
{ACAD_REACTORS
330
47
102
}
330
47
100
AcDbScale
 70
     0
300
3/32" = 1'-0"
140
0.09375
141
12.0
290
     0
  0
SCALE
  5
5E
102
{ACAD_REACTORS
330
47
102
}
330
47
100
AcDbScale
 70
     0
300
1/8" = 1'-0"
140
0.125
141
12.0
290
     0
  0
SCALE
  5
5F
102
{ACAD_REACTORS
330
47
102
}
330
47
100
AcDbScale
 70
     0
300
3/16" = 1'-0"
140
0.1875
141
12.0
290
     0
  0
SCALE
  5
60
102
{ACAD_REACTORS
330
47
102
}
330
47
100
AcDbScale
 70
     0
300
1/4" = 1'-0"
140
0.25
141
12.0
290
     0
  0
SCALE
  5
61
102
{ACAD_REACTORS
330
47
102
}
330
47
100
AcDbScale
 70
     0
300
3/8" = 1'-0"
140
0.375
141
12.0
290
     0
  0
SCALE
  5
62
102
{ACAD_REACTORS
330
47
102
}
330
47
100
AcDbScale
 70
     0
300
1/2" = 1'-0"
140
0.5
141
12.0
290
     0
  0
SCALE
  5
63
102
{ACAD_REACTORS
330
47
102
}
330
47
100
AcDbScale
 70
     0
300
3/4" = 1'-0"
140
0.75
141
12.0
290
     0
  0
SCALE
  5
64
102
{ACAD_REACTORS
330
47
102
}
330
47
100
AcDbScale
 70
     0
300
1" = 1'-0"
140
1.0
141
12.0
290
     0
  0
SCALE
  5
65
102
{ACAD_REACTORS
330
47
102
}
330
47
100
AcDbScale
 70
     0
300
1-1/2" = 1'-0"
140
1.5
141
12.0
290
     0
  0
SCALE
  5
66
102
{ACAD_REACTORS
330
47
102
}
330
47
100
AcDbScale
 70
     0
300
3" = 1'-0"
140
3.0
141
12.0
290
     0
  0
SCALE
  5
67
102
{ACAD_REACTORS
330
47
102
}
330
47
100
AcDbScale
 70
     0
300
6" = 1'-0"
140
6.0
141
12.0
290
     0
  0
SCALE
  5
68
102
{ACAD_REACTORS
330
47
102
}
330
47
100
AcDbScale
 70
     0
300
1'-0" = 1'-0"
140
12.0
141
12.0
290
     0
  0
ENDSEC
  0
EOF
